Pedras Pesadas (tablatura para Baixo) - Mato Seco - Rádio Old Monkey
18/10/2021 11:48 em Música

PEDRAS PESADAS

obs: Pessoaal, tudo bem ? Vou começar a compartilhar aqui aquelas tablaturas de baixo que você não encontra em nenhum lugar. Aceitou sugestões de músicas é só comentar abaixo. Abraços.

VERSO INICIAL

G|--------------|

D|--------------| (8X)

A|--------------|

E|-0--0--0--0--|

 

VERSO 2

PARTE 1

 

G|-----------------------------------------------------|

D|-----------------------------------------------------|

A|-------------------7----------------------5--7-6-5-|

E|-00-33-00-----0-----00-33-00----7--------------|

PARTE 2

G|-----------------------------------------------------|

D|-----------------------------------------------------|

A|-----------------5----7-5-6-------------------------|

E|-00-33-00---7---7----------------------------------|

REFRÃO

G|-----------------------------------------------------|

D|-----------------------------------------------------|

A|---------------------3-2—-------------------3-5-3-2---| (2X)

E|-00-33-00—3-5-------00-33-00—3-5-------------|

 

 VOLTA PARA O VERSO (PORÉM COM VARIAÇÕES)

VERSO 3 PARTE1

 

G|---------------------------------------------------|

D|---------------------------------------------------|

A|--------------------7------------------5--7-6-5----| (2X)

E|-00-33-00-----0-----00-33-00--7--------------|

 

G|-----------------------------------------------------|

D|-----------------------------------------------------|

A|---------------------7----------------------------------|

E|-00-33-00-----0-------00-33-00--------------------|

 

G|-----------------------------------------------------|

D|-----------------------------------------------------|

A|--------------------7--------------------5------7-6-5-----|

E|-00-33-00-----0-----00-33-00---7-----7------------|

REFRÃO Parte 1

G|-----------------------------------------------------|

D|-----------------------------------------------------|

A|--------------------3-2—--------------------3-5-3-2---|

E|-00-33-00—3-5-------00-33-00—3-5-------------|

 

PARTE 2

G|----------------------------------------------------------|

D|-----------------------------------------------5-------------|

A|--------------------3-2—------------------3—--3---3-2----|

E|-00-33-00—3-5-------00-33-00—3-5------------------|

 

Parte 3

G|-----------------------------------------------------|

D|-----------------------------------------------------|

A|--------------------3-2—-------------------3-5-3-2---|

E|-00-33-00—3-5--------00-33-00—3-5------------|

 

Parte 4

G|---------------------------------------------------------------|

D|---------------------------------------------------------------|(2x)

A|-------------------3-2—---------------------3-5-3-2-------------|

E|-00-33-00—3-5---------00-33-00—3-5-------------5-3--------|

 

G|-----------------------------------------------------|

D|-----------------------------------------------------|

A|-------------------3-2—-----------------------------|

E|-00-33-00—3-5---------—-------------------------|

 

 

VERSO FINAL

G|--------------|

D|--------------| (8X)

A|--------------|

E|-0--0--0--0-|

 

COMENTÁRIOS
Comentário enviado com sucesso!
PUBLICIDADE